*The Possibilities* (Lord/M. Rogers/DiPaolo)

Intro Theme:

E:-3--5-----77777-5-----3--5-----7-8--7-7-5-55--3------------------------|
B:-5--7-----88888-7-----6--7-----8-10-8-8-7-77--5------------------------|
G:-0--0-----00000-0-----0--0-----0-0--0-0-0-00--0------------------------|
D:-0--0-----00000-0-----0--0-----0-0--0-0-0-00--0------------------------|
A:-----------------------------------------------------------------------|
E:-----------------------------------------------------------------------|


Verse Vamp:

E:-3333-0--0--3333-0--0--3333-0--0--3333-0--0----------------------------|
B:-3333-2--0--3333-2--0--3333-2--0--3333-2--0----------------------------|
G:-0000-0--0--0000-0--0--0000-0--0--0000-0--0----------------------------|
D:-0000-0--0--0000-0--0--0000-0--0--0000-0--0----------------------------|
A:-----------------------------------------------------------------------|
E:-----------------------------------------------------------------------|

You saw a photo under water
You watched the image multiply
It pushed upon a transformation
It lit a mirror from the sky

           F: [xx0210]          G G6add11 G6
The mirror shines and creates itself

Verse Vamp:
You opened on the folding stairwells
To continue what was handed you
The walking was a conversation
The tunnel was a mirror too
           F: [xx0210]          G G6add11 G6
The mirror shines and creates itself

Chorus:
    G7: [xx0031]
The Mind is now a theater
  Csus4: [xx0011]
A lightning of the object
   D: [xx0032]
It casts the shadows that 
   G: [xx0003]
it sees
G7   
You believe the candles
Csus4
You believe the colors
    D
You believe 
             G
the Possibilities

Verse Vamp:
So now the photo pools the water
And now you pour the water out
It started as an invitation
And shows it what its all about

           F: [xx0210]          G C9 G6
The water shines and creates itself

Chorus:
G7
Every chance is open
Csus4
The past is always shifting
D
Not a constant that 
    G
you please

G7   
You believe the candles
Csus4
You believe the colors
    D
You believe 
             G
the Possibilities

Bridge (all played on top two strings; middle two strings drone; bottom two aren't used):
C4 G
C4 G
Am Bm Cm C5 Bm
Bm Cm C5 Bm
D5 C5 B5

Chorus:
G7
Every chance is open
Csus4
The past is always shifting
D
Not a constant that 
    G
you please

G7   
You believe the candles
Csus4
You believe the colors
    D
You believe 
             G
the Possibilities

Outro:

E:-3--5-----77777-5-----3--5-----7-8--7-7-5-55--3------------------------|
B:-5--7-----88888-7-----6--7-----8-10-8-8-7-77--5------------------------|
G:-0--0-----00000-0-----0--0-----0-0--0-0-0-00--0------------------------|
D:-0--0-----00000-0-----0--0-----0-0--0-0-0-00--0------------------------|
A:-----------------------------------------------------------------------|
E:-----------------------------------------------------------------------|